ISO-10303-21;
HEADER;
FILE_DESCRIPTION (( 'STEP AP203' ),
    '1' );
FILE_NAME ('BK7-LPBSC-10-473.STEP',
    '2020-12-22T03:10:04',
    ( '' ),
    ( '' ),
    'SwSTEP 2.0',
    'SolidWorks 2020',
    '' );
FILE_SCHEMA (( 'CONFIG_CONTROL_DESIGN' ));
ENDSEC;

DATA;
#1 = PLANE ( 'NONE',  #193 ) ;
#2 = DIRECTION ( 'NONE',  ( -0.000000000000000000, -0.000000000000000000, -1.000000000000000000 ) ) ;
#3 = EDGE_CURVE ( 'NONE', #123, #128, #81, .T. ) ;
#4 = ORIENTED_EDGE ( 'NONE', *, *, #108, .T. ) ;
#5 = AXIS2_PLACEMENT_3D ( 'NONE', #285, #66, #64 ) ;
#6 = MANIFOLD_SOLID_BREP ( 'Í¹Ì¨-À', #276 ) ;
#7 = DIRECTION ( 'NONE',  ( 0.000000000000000000, -0.000000000000000000, 1.000000000000000000 ) ) ;
#8 = VERTEX_POINT ( 'NONE', #39 ) ;
#9 = CARTESIAN_POINT ( 'NONE',  ( 0.000000000000000000, 0.000000000000000000, 5.000000000000000000 ) ) ;
#10 =( NAMED_UNIT ( * ) SI_UNIT ( $, .STERADIAN. ) SOLID_ANGLE_UNIT ( ) );
#11 = VERTEX_POINT ( 'NONE', #87 ) ;
#12 = ADVANCED_FACE ( 'NONE', ( #18 ), #235, .F. ) ;
#13 = DIRECTION ( 'NONE',  ( 0.000000000000000000, 0.000000000000000000, 1.000000000000000000 ) ) ;
#14 = LINE ( 'NONE', #111, #291 ) ;
#15 = VECTOR ( 'NONE', #69, 1000.000000000000000 ) ;
#16 = DIRECTION ( 'NONE',  ( -0.000000000000000000, 0.000000000000000000, -1.000000000000000000 ) ) ;
#17 = CARTESIAN_POINT ( 'NONE',  ( 5.000000000000002665, 5.000000000000000000, 5.000000000000000000 ) ) ;
#18 = FACE_OUTER_BOUND ( 'NONE', #141, .T. ) ;
#19 = FACE_OUTER_BOUND ( 'NONE', #63, .T. ) ;
#20 = CC_DESIGN_APPROVAL ( #67, ( #68 ) ) ;
#21 = DIRECTION ( 'NONE',  ( -0.000000000000000000, 0.000000000000000000, -1.000000000000000000 ) ) ;
#22 = DIRECTION ( 'NONE',  ( 1.734723475976807094E-16, 1.000000000000000000, -0.000000000000000000 ) ) ;
#23 = DIRECTION ( 'NONE',  ( 1.000000000000000000, 0.000000000000000000, 0.000000000000000000 ) ) ;
#24 = ORIENTED_EDGE ( 'NONE', *, *, #29, .T. ) ;
#25 = EDGE_CURVE ( 'NONE', #228, #128, #158, .T. ) ;
#26 = AXIS2_PLACEMENT_3D ( 'NONE', #102, #13, #304 ) ;
#27 = DATE_AND_TIME ( #171, #305 ) ;
#28 = CARTESIAN_POINT ( 'NONE',  ( 5.000000000000002665, 5.000000000000000000, 5.000000000000000000 ) ) ;
#29 = EDGE_CURVE ( 'NONE', #309, #183, #185, .T. ) ;
#30 = ORIENTED_EDGE ( 'NONE', *, *, #29, .F. ) ;
#31 =( NAMED_UNIT ( * ) PLANE_ANGLE_UNIT ( ) SI_UNIT ( $, .RADIAN. ) );
#32 = LINE ( 'NONE', #177, #219 ) ;
#33 = ORIENTED_EDGE ( 'NONE', *, *, #138, .F. ) ;
#34 = VERTEX_POINT ( 'NONE', #36 ) ;
#35 = EDGE_CURVE ( 'NONE', #11, #134, #14, .T. ) ;
#36 = CARTESIAN_POINT ( 'NONE',  ( 5.000000000000000888, 5.000000000000001776, 5.000000000000000000 ) ) ;
#37 = CARTESIAN_POINT ( 'NONE',  ( 5.000000000000000888, 5.000000000000001776, 5.000000000000000000 ) ) ;
#38 = CLOSED_SHELL ( 'NONE', ( #65, #12, #308, #272, #164 ) ) ;
#39 = CARTESIAN_POINT ( 'NONE',  ( -4.999999999999999112, -5.000000000000000000, -5.000000000000000000 ) ) ;
#40 = DIRECTION ( 'NONE',  ( -0.7071067811865475727, -0.7071067811865474617, 0.000000000000000000 ) ) ;
#41 = CARTESIAN_POINT ( 'NONE',  ( -5.000000000000000888, -4.999999999999998224, -5.000000000000000000 ) ) ;
#42 = VECTOR ( 'NONE', #245, 1000.000000000000000 ) ;
#43 = CARTESIAN_POINT ( 'NONE',  ( 5.000000000000000888, 5.000000000000001776, -5.000000000000000000 ) ) ;
#44 = CC_DESIGN_PERSON_AND_ORGANIZATION_ASSIGNMENT ( #199, #58, ( #88 ) ) ;
#45 = DIRECTION ( 'NONE',  ( 1.734723475976807094E-16, 1.000000000000000000, -0.000000000000000000 ) ) ;
#46 = DIRECTION ( 'NONE',  ( 1.000000000000000000, 0.000000000000000000, 0.000000000000000000 ) ) ;
#47 = ADVANCED_FACE ( 'NONE', ( #115 ), #239, .F. ) ;
#48 = DIRECTION ( 'NONE',  ( -0.000000000000000000, 0.000000000000000000, 1.000000000000000000 ) ) ;
#49 = DIRECTION ( 'NONE',  ( -0.7071067811865475727, -0.7071067811865474617, 0.000000000000000000 ) ) ;
#50 = SHAPE_DEFINITION_REPRESENTATION ( #133, #94 ) ;
#51 = DIRECTION ( 'NONE',  ( -1.000000000000000000, 4.857225732735059864E-17, 0.000000000000000000 ) ) ;
#52 = DATE_AND_TIME ( #278, #186 ) ;
#53 = LOCAL_TIME ( 11, 10, 4.000000000000000000, #155 ) ;
#54 = ORIENTED_EDGE ( 'NONE', *, *, #196, .T. ) ;
#55 = AXIS2_PLACEMENT_3D ( 'NONE', #266, #218, #137 ) ;
#56 = PERSON_AND_ORGANIZATION ( #255, #112 ) ;
#57 = ORIENTED_EDGE ( 'NONE', *, *, #287, .T. ) ;
#58 = PERSON_AND_ORGANIZATION_ROLE ( 'creator' ) ;
#59 = ORIENTED_EDGE ( 'NONE', *, *, #25, .T. ) ;
#60 = APPROVAL_STATUS ( 'not_yet_approved' ) ;
#61 = ADVANCED_FACE ( 'NONE', ( #86 ), #189, .F. ) ;
#62 = VECTOR ( 'NONE', #195, 1000.000000000000000 ) ;
#63 = EDGE_LOOP ( 'NONE', ( #59, #279, #257 ) ) ;
#64 = DIRECTION ( 'NONE',  ( 0.7071067811865475727, 0.7071067811865474617, 0.000000000000000000 ) ) ;
#65 = ADVANCED_FACE ( 'NONE', ( #157 ), #229, .F. ) ;
#66 = DIRECTION ( 'NONE',  ( 0.7071067811865474617, -0.7071067811865475727, 0.000000000000000000 ) ) ;
#67 = APPROVAL ( #270, 'UNSPECIFIED' ) ;
#68 = SECURITY_CLASSIFICATION ( '', '', #252 ) ;
#69 = DIRECTION ( 'NONE',  ( 1.000000000000000000, -4.857225732735059864E-17, 0.000000000000000000 ) ) ;
#70 = COORDINATED_UNIVERSAL_TIME_OFFSET ( 8, 0, .AHEAD. ) ;
#71 = CARTESIAN_POINT ( 'NONE',  ( -4.999999999999999112, -5.000000000000000000, 5.000000000000000000 ) ) ;
#72 = DIRECTION ( 'NONE',  ( -0.000000000000000000, -0.000000000000000000, -1.000000000000000000 ) ) ;
#73 = LINE ( 'NONE', #221, #191 ) ;
#74 = DATE_AND_TIME ( #140, #248 ) ;
#75 = VERTEX_POINT ( 'NONE', #253 ) ;
#76 = CARTESIAN_POINT ( 'NONE',  ( -4.999999999999999112, -5.000000000000000000, 5.000000000000000000 ) ) ;
#77 = ORIENTED_EDGE ( 'NONE', *, *, #90, .T. ) ;
#78 = ORIENTED_EDGE ( 'NONE', *, *, #169, .F. ) ;
#79 = EDGE_CURVE ( 'NONE', #34, #123, #85, .T. ) ;
#80 = UNCERTAINTY_MEASURE_WITH_UNIT (LENGTH_MEASURE( 1.000000000000000082E-05 ), #269, 'distance_accuracy_value', 'NONE');
#81 = LINE ( 'NONE', #254, #163 ) ;
#82 = AXIS2_PLACEMENT_3D ( 'NONE', #107, #214, #315 ) ;
#83 = CC_DESIGN_PERSON_AND_ORGANIZATION_ASSIGNMENT ( #152, #204, ( #280 ) ) ;
#84 = CC_DESIGN_APPROVAL ( #166, ( #280 ) ) ;
#85 = LINE ( 'NONE', #37, #93 ) ;
#86 = FACE_OUTER_BOUND ( 'NONE', #222, .T. ) ;
#87 = CARTESIAN_POINT ( 'NONE',  ( -4.999999999999999112, 5.000000000000001776, 5.000000000000000000 ) ) ;
#88 = PRODUCT_DEFINITION ( 'UNKNOWN', '', #280, #181 ) ;
#89 = CARTESIAN_POINT ( 'NONE',  ( 5.000000000000000888, 5.000000000000001776, -5.000000000000000000 ) ) ;
#90 = EDGE_CURVE ( 'NONE', #75, #309, #238, .T. ) ;
#91 = PLANE ( 'NONE',  #55 ) ;
#92 = FACE_OUTER_BOUND ( 'NONE', #212, .T. ) ;
#93 = VECTOR ( 'NONE', #129, 1000.000000000000000 ) ;
#94 = ADVANCED_BREP_SHAPE_REPRESENTATION ( 'BK7-LPBSC-10-473', ( #6, #110, #26 ), #237 ) ;
#95 = EDGE_CURVE ( 'NONE', #11, #34, #292, .T. ) ;
#96 = PERSON_AND_ORGANIZATION ( #255, #112 ) ;
#97 = CARTESIAN_POINT ( 'NONE',  ( 5.000000000000002665, 5.000000000000000000, -5.000000000000000000 ) ) ;
#98 = PERSON_AND_ORGANIZATION ( #255, #112 ) ;
#99 = AXIS2_PLACEMENT_3D ( 'NONE', #246, #271, #51 ) ;
#100 = ORIENTED_EDGE ( 'NONE', *, *, #210, .F. ) ;
#101 = LINE ( 'NONE', #97, #161 ) ;
#102 = CARTESIAN_POINT ( 'NONE',  ( 0.000000000000000000, 0.000000000000000000, 0.000000000000000000 ) ) ;
#103 = FACE_OUTER_BOUND ( 'NONE', #231, .T. ) ;
#104 = APPLICATION_PROTOCOL_DEFINITION ( 'international standard', 'config_control_design', 1994, #264 ) ;
#105 = ORIENTED_EDGE ( 'NONE', *, *, #319, .F. ) ;
#106 = PERSON_AND_ORGANIZATION ( #255, #112 ) ;
#107 = CARTESIAN_POINT ( 'NONE',  ( 0.000000000000000000, 0.000000000000000000, -5.000000000000000000 ) ) ;
#108 = EDGE_CURVE ( 'NONE', #225, #207, #194, .T. ) ;
#109 = ORIENTED_EDGE ( 'NONE', *, *, #95, .T. ) ;
#110 = MANIFOLD_SOLID_BREP ( '¾µÏ', #38 ) ;
#111 = CARTESIAN_POINT ( 'NONE',  ( -4.999999999999999112, 5.000000000000001776, 5.000000000000000000 ) ) ;
#112 = ORGANIZATION ( 'UNSPECIFIED', 'UNSPECIFIED', '' ) ;
#113 = APPROVAL_PERSON_ORGANIZATION ( #96, #67, #244 ) ;
#114 = ORIENTED_EDGE ( 'NONE', *, *, #35, .F. ) ;
#115 = FACE_OUTER_BOUND ( 'NONE', #180, .T. ) ;
#116 = CARTESIAN_POINT ( 'NONE',  ( 5.000000000000000888, 5.000000000000001776, 5.000000000000000000 ) ) ;
#117 = CARTESIAN_POINT ( 'NONE',  ( 5.000000000000000888, -5.000000000000000000, 5.000000000000000000 ) ) ;
#118 = CARTESIAN_POINT ( 'NONE',  ( -4.999999999999999112, -5.000000000000000000, 5.000000000000000000 ) ) ;
#119 = PLANE ( 'NONE',  #211 ) ;
#120 = VECTOR ( 'NONE', #45, 1000.000000000000000 ) ;
#121 = APPROVAL ( #310, 'UNSPECIFIED' ) ;
#122 = VECTOR ( 'NONE', #233, 1000.000000000000000 ) ;
#123 = VERTEX_POINT ( 'NONE', #243 ) ;
#124 = FACE_OUTER_BOUND ( 'NONE', #168, .T. ) ;
#125 = PERSON_AND_ORGANIZATION ( #255, #112 ) ;
#126 = ORIENTED_EDGE ( 'NONE', *, *, #143, .F. ) ;
#127 = COORDINATED_UNIVERSAL_TIME_OFFSET ( 8, 0, .AHEAD. ) ;
#128 = VERTEX_POINT ( 'NONE', #41 ) ;
#129 = DIRECTION ( 'NONE',  ( -0.7071067811865475727, -0.7071067811865474617, 0.000000000000000000 ) ) ;
#130 = AXIS2_PLACEMENT_3D ( 'NONE', #296, #139, #240 ) ;
#131 = DIRECTION ( 'NONE',  ( -0.7071067811865474617, 0.7071067811865475727, 0.000000000000000000 ) ) ;
#132 = DIRECTION ( 'NONE',  ( -0.000000000000000000, 0.000000000000000000, -1.000000000000000000 ) ) ;
#133 = PRODUCT_DEFINITION_SHAPE ( 'NONE', 'NONE',  #88 ) ;
#134 = VERTEX_POINT ( 'NONE', #215 ) ;
#135 = CARTESIAN_POINT ( 'NONE',  ( 5.000000000000000888, -5.000000000000000000, -5.000000000000000000 ) ) ;
#136 = APPROVAL_PERSON_ORGANIZATION ( #125, #166, #300 ) ;
#137 = DIRECTION ( 'NONE',  ( 2.220446049250313081E-16, 1.000000000000000000, 0.000000000000000000 ) ) ;
#138 = EDGE_CURVE ( 'NONE', #75, #225, #263, .T. ) ;
#139 = DIRECTION ( 'NONE',  ( -1.000000000000000000, 1.734723475976807094E-16, 0.000000000000000000 ) ) ;
#140 = CALENDAR_DATE ( 2020, 22, 12 ) ;
#141 = EDGE_LOOP ( 'NONE', ( #227, #159, #187, #156 ) ) ;
#142 = FACE_OUTER_BOUND ( 'NONE', #153, .T. ) ;
#143 = EDGE_CURVE ( 'NONE', #8, #225, #320, .T. ) ;
#144 = MECHANICAL_CONTEXT ( 'NONE', #264, 'mechanical' ) ;
#145 = ORIENTED_EDGE ( 'NONE', *, *, #138, .T. ) ;
#146 = VECTOR ( 'NONE', #21, 1000.000000000000000 ) ;
#147 = VECTOR ( 'NONE', #217, 1000.000000000000000 ) ;
#148 = ORIENTED_EDGE ( 'NONE', *, *, #262, .F. ) ;
#149 = PERSON_AND_ORGANIZATION_ROLE ( 'creator' ) ;
#150 = ORIENTED_EDGE ( 'NONE', *, *, #79, .F. ) ;
#151 = ADVANCED_FACE ( 'NONE', ( #92 ), #258, .F. ) ;
#152 = PERSON_AND_ORGANIZATION ( #255, #112 ) ;
#153 = EDGE_LOOP ( 'NONE', ( #318, #33, #197, #274 ) ) ;
#154 = CC_DESIGN_DATE_AND_TIME_ASSIGNMENT ( #277, #202, ( #88 ) ) ;
#155 = COORDINATED_UNIVERSAL_TIME_OFFSET ( 8, 0, .AHEAD. ) ;
#156 = ORIENTED_EDGE ( 'NONE', *, *, #35, .T. ) ;
#157 = FACE_OUTER_BOUND ( 'NONE', #298, .T. ) ;
#158 = LINE ( 'NONE', #89, #122 ) ;
#159 = ORIENTED_EDGE ( 'NONE', *, *, #3, .F. ) ;
#160 = CARTESIAN_POINT ( 'NONE',  ( 5.000000000000000888, 5.000000000000001776, 5.000000000000000000 ) ) ;
#161 = VECTOR ( 'NONE', #49, 1000.000000000000000 ) ;
#162 = CARTESIAN_POINT ( 'NONE',  ( 5.000000000000000888, 5.000000000000001776, -5.000000000000000000 ) ) ;
#163 = VECTOR ( 'NONE', #132, 1000.000000000000000 ) ;
#164 = ADVANCED_FACE ( 'NONE', ( #19 ), #91, .F. ) ;
#165 = LINE ( 'NONE', #261, #42 ) ;
#166 = APPROVAL ( #60, 'UNSPECIFIED' ) ;
#167 = PERSON_AND_ORGANIZATION_ROLE ( 'classification_officer' ) ;
#168 = EDGE_LOOP ( 'NONE', ( #24, #54, #77 ) ) ;
#169 = EDGE_CURVE ( 'NONE', #34, #228, #190, .T. ) ;
#170 = FACE_OUTER_BOUND ( 'NONE', #282, .T. ) ;
#171 = CALENDAR_DATE ( 2020, 22, 12 ) ;
#172 = ORIENTED_EDGE ( 'NONE', *, *, #25, .F. ) ;
#173 = CC_DESIGN_SECURITY_CLASSIFICATION ( #68, ( #280 ) ) ;
#174 = PLANE ( 'NONE',  #99 ) ;
#175 = COORDINATED_UNIVERSAL_TIME_OFFSET ( 8, 0, .AHEAD. ) ;
#176 = ORIENTED_EDGE ( 'NONE', *, *, #108, .F. ) ;
#177 = CARTESIAN_POINT ( 'NONE',  ( -4.999999999999999112, -5.000000000000000000, 5.000000000000000000 ) ) ;
#178 = VECTOR ( 'NONE', #72, 1000.000000000000000 ) ;
#179 = DATE_AND_TIME ( #206, #223 ) ;
#180 = EDGE_LOOP ( 'NONE', ( #200, #176, #126 ) ) ;
#181 = DESIGN_CONTEXT ( 'detailed design', #286, 'design' ) ;
#182 = APPROVAL_ROLE ( '' ) ;
#183 = VERTEX_POINT ( 'NONE', #118 ) ;
#184 = DIRECTION ( 'NONE',  ( 0.7071067811865475727, 0.7071067811865474617, 0.000000000000000000 ) ) ;
#185 = LINE ( 'NONE', #281, #234 ) ;
#186 = LOCAL_TIME ( 11, 10, 4.000000000000000000, #175 ) ;
#187 = ORIENTED_EDGE ( 'NONE', *, *, #262, .T. ) ;
#188 = ORIENTED_EDGE ( 'NONE', *, *, #210, .T. ) ;
#189 = PLANE ( 'NONE',  #5 ) ;
#190 = LINE ( 'NONE', #116, #146 ) ;
#191 = VECTOR ( 'NONE', #201, 1000.000000000000000 ) ;
#192 = LINE ( 'NONE', #289, #62 ) ;
#193 = AXIS2_PLACEMENT_3D ( 'NONE', #9, #48, #23 ) ;
#194 = LINE ( 'NONE', #242, #314 ) ;
#195 = DIRECTION ( 'NONE',  ( -0.000000000000000000, -0.000000000000000000, -1.000000000000000000 ) ) ;
#196 = EDGE_CURVE ( 'NONE', #183, #75, #293, .T. ) ;
#197 = ORIENTED_EDGE ( 'NONE', *, *, #196, .F. ) ;
#198 = DIRECTION ( 'NONE',  ( 0.000000000000000000, -0.000000000000000000, 1.000000000000000000 ) ) ;
#199 = PERSON_AND_ORGANIZATION ( #255, #112 ) ;
#200 = ORIENTED_EDGE ( 'NONE', *, *, #287, .F. ) ;
#201 = DIRECTION ( 'NONE',  ( 2.220446049250313081E-16, 1.000000000000000000, 0.000000000000000000 ) ) ;
#202 = DATE_TIME_ROLE ( 'creation_date' ) ;
#203 = ORIENTED_EDGE ( 'NONE', *, *, #230, .F. ) ;
#204 = PERSON_AND_ORGANIZATION_ROLE ( 'design_supplier' ) ;
#205 = ORIENTED_EDGE ( 'NONE', *, *, #95, .F. ) ;
#206 = CALENDAR_DATE ( 2020, 22, 12 ) ;
#207 = VERTEX_POINT ( 'NONE', #220 ) ;
#208 = APPLICATION_PROTOCOL_DEFINITION ( 'international standard', 'config_control_design', 1994, #286 ) ;
#209 = DIRECTION ( 'NONE',  ( 1.000000000000000000, -2.220446049250313081E-16, 0.000000000000000000 ) ) ;
#210 = EDGE_CURVE ( 'NONE', #309, #207, #192, .T. ) ;
#211 = AXIS2_PLACEMENT_3D ( 'NONE', #268, #7, #303 ) ;
#212 = EDGE_LOOP ( 'NONE', ( #4, #100, #301, #145 ) ) ;
#213 = CC_DESIGN_APPROVAL ( #121, ( #88 ) ) ;
#214 = DIRECTION ( 'NONE',  ( -0.000000000000000000, 0.000000000000000000, 1.000000000000000000 ) ) ;
#215 = CARTESIAN_POINT ( 'NONE',  ( -4.999999999999999112, 5.000000000000001776, -5.000000000000000000 ) ) ;
#216 = DIRECTION ( 'NONE',  ( 1.000000000000000000, 0.000000000000000000, 0.000000000000000000 ) ) ;
#217 = DIRECTION ( 'NONE',  ( 1.000000000000000000, -4.857225732735059864E-17, 0.000000000000000000 ) ) ;
#218 = DIRECTION ( 'NONE',  ( 0.000000000000000000, -0.000000000000000000, 1.000000000000000000 ) ) ;
#219 = VECTOR ( 'NONE', #2, 1000.000000000000000 ) ;
#220 = CARTESIAN_POINT ( 'NONE',  ( 5.000000000000002665, 5.000000000000000000, -5.000000000000000000 ) ) ;
#221 = CARTESIAN_POINT ( 'NONE',  ( -5.000000000000000888, -4.999999999999998224, 5.000000000000000000 ) ) ;
#222 = EDGE_LOOP ( 'NONE', ( #57, #105, #30, #188 ) ) ;
#223 = LOCAL_TIME ( 11, 10, 4.000000000000000000, #127 ) ;
#224 = COORDINATED_UNIVERSAL_TIME_OFFSET ( 8, 0, .AHEAD. ) ;
#225 = VERTEX_POINT ( 'NONE', #135 ) ;
#226 = DIRECTION ( 'NONE',  ( 0.000000000000000000, 1.000000000000000000, 0.000000000000000000 ) ) ;
#227 = ORIENTED_EDGE ( 'NONE', *, *, #236, .F. ) ;
#228 = VERTEX_POINT ( 'NONE', #162 ) ;
#229 = PLANE ( 'NONE',  #275 ) ;
#230 = EDGE_CURVE ( 'NONE', #134, #228, #260, .T. ) ;
#231 = EDGE_LOOP ( 'NONE', ( #203, #114, #109, #267 ) ) ;
#232 = CC_DESIGN_PERSON_AND_ORGANIZATION_ASSIGNMENT ( #251, #167, ( #68 ) ) ;
#233 = DIRECTION ( 'NONE',  ( -0.7071067811865475727, -0.7071067811865474617, 0.000000000000000000 ) ) ;
#234 = VECTOR ( 'NONE', #40, 1000.000000000000000 ) ;
#235 = PLANE ( 'NONE',  #259 ) ;
#236 = EDGE_CURVE ( 'NONE', #128, #134, #165, .T. ) ;
#237 =( GEOMETRIC_REPRESENTATION_CONTEXT ( 3 ) GLOBAL_UNCERTAINTY_ASSIGNED_CONTEXT ( ( #80 ) ) GLOBAL_UNIT_ASSIGNED_CONTEXT ( ( #269, #31, #10 ) ) REPRESENTATION_CONTEXT ( 'NONE', 'WORKASPACE' ) );
#238 = LINE ( 'NONE', #17, #120 ) ;
#239 = PLANE ( 'NONE',  #82 ) ;
#240 = DIRECTION ( 'NONE',  ( -1.734723475976807094E-16, -1.000000000000000000, 0.000000000000000000 ) ) ;
#241 = PRODUCT_RELATED_PRODUCT_CATEGORY ( 'detail', '', ( #284 ) ) ;
#242 = CARTESIAN_POINT ( 'NONE',  ( 5.000000000000002665, 5.000000000000000000, -5.000000000000000000 ) ) ;
#243 = CARTESIAN_POINT ( 'NONE',  ( -5.000000000000000888, -4.999999999999998224, 5.000000000000000000 ) ) ;
#244 = APPROVAL_ROLE ( '' ) ;
#245 = DIRECTION ( 'NONE',  ( 2.220446049250313081E-16, 1.000000000000000000, 0.000000000000000000 ) ) ;
#246 = CARTESIAN_POINT ( 'NONE',  ( 5.000000000000000888, 5.000000000000001776, 5.000000000000000000 ) ) ;
#247 = AXIS2_PLACEMENT_3D ( 'NONE', #76, #226, #198 ) ;
#248 = LOCAL_TIME ( 11, 10, 4.000000000000000000, #70 ) ;
#249 = APPROVAL_DATE_TIME ( #52, #166 ) ;
#250 = APPROVAL_DATE_TIME ( #179, #121 ) ;
#251 = PERSON_AND_ORGANIZATION ( #255, #112 ) ;
#252 = SECURITY_CLASSIFICATION_LEVEL ( 'unclassified' ) ;
#253 = CARTESIAN_POINT ( 'NONE',  ( 5.000000000000000888, -5.000000000000000000, 5.000000000000000000 ) ) ;
#254 = CARTESIAN_POINT ( 'NONE',  ( -5.000000000000000888, -4.999999999999998224, 5.000000000000000000 ) ) ;
#255 = PERSON ( 'UNSPECIFIED', 'UNSPECIFIED', 'UNSPECIFIED', ('UNSPECIFIED'), ('UNSPECIFIED'), ('UNSPECIFIED') ) ;
#256 = ORIENTED_EDGE ( 'NONE', *, *, #79, .T. ) ;
#257 = ORIENTED_EDGE ( 'NONE', *, *, #230, .T. ) ;
#258 = PLANE ( 'NONE',  #130 ) ;
#259 = AXIS2_PLACEMENT_3D ( 'NONE', #317, #209, #283 ) ;
#260 = LINE ( 'NONE', #43, #15 ) ;
#261 = CARTESIAN_POINT ( 'NONE',  ( -5.000000000000000888, -4.999999999999998224, -5.000000000000000000 ) ) ;
#262 = EDGE_CURVE ( 'NONE', #123, #11, #73, .T. ) ;
#263 = LINE ( 'NONE', #117, #178 ) ;
#264 = APPLICATION_CONTEXT ( 'configuration controlled 3d designs of mechanical parts and assemblies' ) ;
#265 = ADVANCED_FACE ( 'NONE', ( #142 ), #299, .F. ) ;
#266 = CARTESIAN_POINT ( 'NONE',  ( 0.000000000000000000, 0.000000000000000000, -5.000000000000000000 ) ) ;
#267 = ORIENTED_EDGE ( 'NONE', *, *, #169, .T. ) ;
#268 = CARTESIAN_POINT ( 'NONE',  ( 0.000000000000000000, 0.000000000000000000, 5.000000000000000000 ) ) ;
#269 =( LENGTH_UNIT ( ) NAMED_UNIT ( * ) SI_UNIT ( .MILLI., .METRE. ) );
#270 = APPROVAL_STATUS ( 'not_yet_approved' ) ;
#271 = DIRECTION ( 'NONE',  ( -4.857225732735059864E-17, -1.000000000000000000, 0.000000000000000000 ) ) ;
#272 = ADVANCED_FACE ( 'NONE', ( #170 ), #119, .T. ) ;
#273 = CALENDAR_DATE ( 2020, 22, 12 ) ;
#274 = ORIENTED_EDGE ( 'NONE', *, *, #319, .T. ) ;
#275 = AXIS2_PLACEMENT_3D ( 'NONE', #313, #131, #184 ) ;
#276 = CLOSED_SHELL ( 'NONE', ( #61, #265, #151, #311, #47 ) ) ;
#277 = DATE_AND_TIME ( #273, #53 ) ;
#278 = CALENDAR_DATE ( 2020, 22, 12 ) ;
#279 = ORIENTED_EDGE ( 'NONE', *, *, #236, .T. ) ;
#280 = PRODUCT_DEFINITION_FORMATION_WITH_SPECIFIED_SOURCE ( 'ANY', '', #284, .NOT_KNOWN. ) ;
#281 = CARTESIAN_POINT ( 'NONE',  ( 5.000000000000002665, 5.000000000000000000, 5.000000000000000000 ) ) ;
#282 = EDGE_LOOP ( 'NONE', ( #150, #205, #148 ) ) ;
#283 = DIRECTION ( 'NONE',  ( 0.000000000000000000, 0.000000000000000000, 1.000000000000000000 ) ) ;
#284 = PRODUCT ( 'BK7-LPBSC-10-473', 'BK7-LPBSC-10-473', '', ( #144 ) ) ;
#285 = CARTESIAN_POINT ( 'NONE',  ( 5.000000000000002665, 5.000000000000000000, 5.000000000000000000 ) ) ;
#286 = APPLICATION_CONTEXT ( 'configuration controlled 3d designs of mechanical parts and assemblies' ) ;
#287 = EDGE_CURVE ( 'NONE', #207, #8, #101, .T. ) ;
#288 = CARTESIAN_POINT ( 'NONE',  ( -4.999999999999999112, -5.000000000000000000, -5.000000000000000000 ) ) ;
#289 = CARTESIAN_POINT ( 'NONE',  ( 5.000000000000002665, 5.000000000000000000, 5.000000000000000000 ) ) ;
#290 = APPROVAL_PERSON_ORGANIZATION ( #98, #121, #182 ) ;
#291 = VECTOR ( 'NONE', #16, 1000.000000000000000 ) ;
#292 = LINE ( 'NONE', #160, #147 ) ;
#293 = LINE ( 'NONE', #71, #321 ) ;
#294 = CC_DESIGN_DATE_AND_TIME_ASSIGNMENT ( #74, #297, ( #68 ) ) ;
#295 = APPROVAL_DATE_TIME ( #27, #67 ) ;
#296 = CARTESIAN_POINT ( 'NONE',  ( 5.000000000000002665, 5.000000000000000000, 5.000000000000000000 ) ) ;
#297 = DATE_TIME_ROLE ( 'classification_date' ) ;
#298 = EDGE_LOOP ( 'NONE', ( #172, #78, #256, #306 ) ) ;
#299 = PLANE ( 'NONE',  #247 ) ;
#300 = APPROVAL_ROLE ( '' ) ;
#301 = ORIENTED_EDGE ( 'NONE', *, *, #90, .F. ) ;
#302 = CC_DESIGN_PERSON_AND_ORGANIZATION_ASSIGNMENT ( #106, #307, ( #284 ) ) ;
#303 = DIRECTION ( 'NONE',  ( 2.220446049250313081E-16, 1.000000000000000000, 0.000000000000000000 ) ) ;
#304 = DIRECTION ( 'NONE',  ( 1.000000000000000000, 0.000000000000000000, 0.000000000000000000 ) ) ;
#305 = LOCAL_TIME ( 11, 10, 4.000000000000000000, #224 ) ;
#306 = ORIENTED_EDGE ( 'NONE', *, *, #3, .T. ) ;
#307 = PERSON_AND_ORGANIZATION_ROLE ( 'design_owner' ) ;
#308 = ADVANCED_FACE ( 'NONE', ( #103 ), #174, .F. ) ;
#309 = VERTEX_POINT ( 'NONE', #28 ) ;
#310 = APPROVAL_STATUS ( 'not_yet_approved' ) ;
#311 = ADVANCED_FACE ( 'NONE', ( #124 ), #1, .T. ) ;
#312 = VECTOR ( 'NONE', #46, 1000.000000000000000 ) ;
#313 = CARTESIAN_POINT ( 'NONE',  ( 5.000000000000000888, 5.000000000000001776, 5.000000000000000000 ) ) ;
#314 = VECTOR ( 'NONE', #22, 1000.000000000000000 ) ;
#315 = DIRECTION ( 'NONE',  ( 1.000000000000000000, 0.000000000000000000, 0.000000000000000000 ) ) ;
#316 = CC_DESIGN_PERSON_AND_ORGANIZATION_ASSIGNMENT ( #56, #149, ( #280 ) ) ;
#317 = CARTESIAN_POINT ( 'NONE',  ( -5.000000000000000888, -4.999999999999998224, 5.000000000000000000 ) ) ;
#318 = ORIENTED_EDGE ( 'NONE', *, *, #143, .T. ) ;
#319 = EDGE_CURVE ( 'NONE', #183, #8, #32, .T. ) ;
#320 = LINE ( 'NONE', #288, #312 ) ;
#321 = VECTOR ( 'NONE', #216, 1000.000000000000000 ) ;
ENDSEC;
END-ISO-10303-21;
